ISO-10303-21;
HEADER;
FILE_DESCRIPTION (( 'STEP AP203' ),
    '1' );
FILE_NAME ('Q-OZHWP-R2-12.7-1064-M.STEP',
    '2020-12-22T09:13:12',
    ( '' ),
    ( '' ),
    'SwSTEP 2.0',
    'SolidWorks 2020',
    '' );
FILE_SCHEMA (( 'CONFIG_CONTROL_DESIGN' ));
ENDSEC;

DATA;
#1 = EDGE_LOOP ( 'NONE', ( #211, #233 ) ) ;
#2 = EDGE_CURVE ( 'NONE', #27, #100, #52, .T. ) ;
#3 = ORIENTED_EDGE ( 'NONE', *, *, #81, .T. ) ;
#4 = VERTEX_POINT ( 'NONE', #103 ) ;
#5 = EDGE_CURVE ( 'NONE', #4, #236, #85, .T. ) ;
#6 = ORIENTED_EDGE ( 'NONE', *, *, #182, .F. ) ;
#7 = DIRECTION ( 'NONE',  ( -1.000000000000000000, -0.000000000000000000, -0.000000000000000000 ) ) ;
#8 = CARTESIAN_POINT ( 'NONE',  ( 0.000000000000000000, 0.000000000000000000, 0.000000000000000000 ) ) ;
#9 = CARTESIAN_POINT ( 'NONE',  ( -1.614212418857619014, 0.000000000000000000, 6.349999999999999645 ) ) ;
#10 = CIRCLE ( 'NONE', #201, 12.69999999999999929 ) ;
#11 = CARTESIAN_POINT ( 'NONE',  ( -1.614212418857619014, 7.776507174585692163E-16, -6.349999999999999645 ) ) ;
#12 = APPLICATION_CONTEXT ( 'configuration controlled 3d designs of mechanical parts and assemblies' ) ;
#13 = CARTESIAN_POINT ( 'NONE',  ( -1.614212418857619014, 7.776507174585692163E-16, -6.349999999999999645 ) ) ;
#14 = CYLINDRICAL_SURFACE ( 'NONE', #120, 12.69999999999999929 ) ;
#15 = DIRECTION ( 'NONE',  ( -1.000000000000000000, -0.000000000000000000, -0.000000000000000000 ) ) ;
#16 = PLANE ( 'NONE',  #287 ) ;
#17 = PERSON_AND_ORGANIZATION_ROLE ( 'design_supplier' ) ;
#18 = PERSON_AND_ORGANIZATION_ROLE ( 'classification_officer' ) ;
#19 = AXIS2_PLACEMENT_3D ( 'NONE', #111, #140, #57 ) ;
#20 = PERSON_AND_ORGANIZATION ( #202, #25 ) ;
#21 = EDGE_LOOP ( 'NONE', ( #135, #170, #293, #184 ) ) ;
#22 = ORIENTED_EDGE ( 'NONE', *, *, #60, .T. ) ;
#23 = AXIS2_PLACEMENT_3D ( 'NONE', #275, #245, #224 ) ;
#24 = CIRCLE ( 'NONE', #269, 6.349999999999999645 ) ;
#25 = ORGANIZATION ( 'UNSPECIFIED', 'UNSPECIFIED', '' ) ;
#26 = ORIENTED_EDGE ( 'NONE', *, *, #2, .F. ) ;
#27 = VERTEX_POINT ( 'NONE', #314 ) ;
#28 = ORIENTED_EDGE ( 'NONE', *, *, #60, .F. ) ;
#29 = CARTESIAN_POINT ( 'NONE',  ( -3.000000000000000000, 1.555301434917138433E-15, -12.69999999999999929 ) ) ;
#30 = DIRECTION ( 'NONE',  ( -1.000000000000000000, -0.000000000000000000, -0.000000000000000000 ) ) ;
#31 = CYLINDRICAL_SURFACE ( 'NONE', #321, 6.349999999999999645 ) ;
#32 = DIRECTION ( 'NONE',  ( 0.000000000000000000, 0.000000000000000000, -1.000000000000000000 ) ) ;
#33 = DIRECTION ( 'NONE',  ( -1.000000000000000000, -0.000000000000000000, -0.000000000000000000 ) ) ;
#34 = DIRECTION ( 'NONE',  ( 0.000000000000000000, 0.000000000000000000, 1.000000000000000000 ) ) ;
#35 = SECURITY_CLASSIFICATION ( '', '', #47 ) ;
#36 = DIRECTION ( 'NONE',  ( 0.000000000000000000, 0.000000000000000000, -1.000000000000000000 ) ) ;
#37 = CARTESIAN_POINT ( 'NONE',  ( -1.614212418857619014, 0.000000000000000000, 0.000000000000000000 ) ) ;
#38 = DIRECTION ( 'NONE',  ( -1.000000000000000000, -0.000000000000000000, -0.000000000000000000 ) ) ;
#39 = CARTESIAN_POINT ( 'NONE',  ( 1.500000000000000888, 0.000000000000000000, 0.000000000000000000 ) ) ;
#40 = APPROVAL_ROLE ( '' ) ;
#41 = CALENDAR_DATE ( 2020, 22, 12 ) ;
#42 = MANIFOLD_SOLID_BREP ( 'Ðý×', #329 ) ;
#43 = EDGE_CURVE ( 'NONE', #4, #27, #143, .T. ) ;
#44 = DATE_AND_TIME ( #151, #222 ) ;
#45 = LOCAL_TIME ( 17, 13, 12.00000000000000000, #199 ) ;
#46 = ORIENTED_EDGE ( 'NONE', *, *, #132, .F. ) ;
#47 = SECURITY_CLASSIFICATION_LEVEL ( 'unclassified' ) ;
#48 = EDGE_CURVE ( 'NONE', #128, #335, #281, .T. ) ;
#49 = ORIENTED_EDGE ( 'NONE', *, *, #43, .T. ) ;
#50 = CC_DESIGN_PERSON_AND_ORGANIZATION_ASSIGNMENT ( #126, #18, ( #35 ) ) ;
#51 = VERTEX_POINT ( 'NONE', #270 ) ;
#52 = CIRCLE ( 'NONE', #237, 6.349999999999999645 ) ;
#53 =( GEOMETRIC_REPRESENTATION_CONTEXT ( 3 ) GLOBAL_UNCERTAINTY_ASSIGNED_CONTEXT ( ( #244 ) ) GLOBAL_UNIT_ASSIGNED_CONTEXT ( ( #218, #193, #119 ) ) REPRESENTATION_CONTEXT ( 'NONE', 'WORKASPACE' ) );
#54 = EDGE_LOOP ( 'NONE', ( #310, #49, #131, #104 ) ) ;
#55 = ADVANCED_FACE ( 'NONE', ( #84 ), #114, .T. ) ;
#56 = FACE_BOUND ( 'NONE', #292, .T. ) ;
#57 = DIRECTION ( 'NONE',  ( 0.000000000000000000, 0.000000000000000000, 1.000000000000000000 ) ) ;
#58 = AXIS2_PLACEMENT_3D ( 'NONE', #8, #221, #190 ) ;
#59 = APPLICATION_PROTOCOL_DEFINITION ( 'international standard', 'config_control_design', 1994, #12 ) ;
#60 = EDGE_CURVE ( 'NONE', #186, #260, #249, .T. ) ;
#61 = DIRECTION ( 'NONE',  ( -1.000000000000000000, -0.000000000000000000, -0.000000000000000000 ) ) ;
#62 = DIRECTION ( 'NONE',  ( -1.000000000000000000, -0.000000000000000000, -0.000000000000000000 ) ) ;
#63 = DIRECTION ( 'NONE',  ( -1.000000000000000000, -0.000000000000000000, -0.000000000000000000 ) ) ;
#64 = DIRECTION ( 'NONE',  ( 0.000000000000000000, 0.000000000000000000, 1.000000000000000000 ) ) ;
#65 = FACE_OUTER_BOUND ( 'NONE', #21, .T. ) ;
#66 = APPROVAL_PERSON_ORGANIZATION ( #20, #239, #71 ) ;
#67 = CARTESIAN_POINT ( 'NONE',  ( 3.000000000000000000, 0.000000000000000000, 0.000000000000000000 ) ) ;
#68 = DIRECTION ( 'NONE',  ( 0.000000000000000000, 0.000000000000000000, 1.000000000000000000 ) ) ;
#69 = APPROVAL_STATUS ( 'not_yet_approved' ) ;
#70 = PRODUCT ( 'Q-OZHWP-R2-12.7-1064-M', 'Q-OZHWP-R2-12.7-1064-M', '', ( #172 ) ) ;
#71 = APPROVAL_ROLE ( '' ) ;
#72 = AXIS2_PLACEMENT_3D ( 'NONE', #302, #316, #32 ) ;
#73 = CC_DESIGN_APPROVAL ( #273, ( #257 ) ) ;
#74 = DATE_AND_TIME ( #256, #331 ) ;
#75 = EDGE_LOOP ( 'NONE', ( #262, #28 ) ) ;
#76 = PERSON_AND_ORGANIZATION ( #202, #25 ) ;
#77 = DIRECTION ( 'NONE',  ( 1.000000000000000000, 0.000000000000000000, 0.000000000000000000 ) ) ;
#78 = EDGE_LOOP ( 'NONE', ( #178, #133 ) ) ;
#79 = ADVANCED_FACE ( 'NONE', ( #250 ), #219, .F. ) ;
#80 = DIRECTION ( 'NONE',  ( 0.000000000000000000, 0.000000000000000000, 1.000000000000000000 ) ) ;
#81 = EDGE_CURVE ( 'NONE', #106, #51, #254, .T. ) ;
#82 = VERTEX_POINT ( 'NONE', #86 ) ;
#83 = DIRECTION ( 'NONE',  ( -1.000000000000000000, -0.000000000000000000, -0.000000000000000000 ) ) ;
#84 = FACE_OUTER_BOUND ( 'NONE', #157, .T. ) ;
#85 = CIRCLE ( 'NONE', #200, 6.349999999999999645 ) ;
#86 = CARTESIAN_POINT ( 'NONE',  ( 3.000000000000000888, 7.776507174585692163E-16, -6.349999999999999645 ) ) ;
#87 = AXIS2_PLACEMENT_3D ( 'NONE', #39, #164, #64 ) ;
#88 = DIRECTION ( 'NONE',  ( 0.000000000000000000, 0.000000000000000000, 1.000000000000000000 ) ) ;
#89 = CARTESIAN_POINT ( 'NONE',  ( -2.999999999999999556, 0.000000000000000000, 0.000000000000000000 ) ) ;
#90 = DIRECTION ( 'NONE',  ( -1.000000000000000000, -0.000000000000000000, -0.000000000000000000 ) ) ;
#91 = DIRECTION ( 'NONE',  ( 0.000000000000000000, 0.000000000000000000, -1.000000000000000000 ) ) ;
#92 = VECTOR ( 'NONE', #38, 1000.000000000000000 ) ;
#93 = DIRECTION ( 'NONE',  ( 0.000000000000000000, 0.000000000000000000, 1.000000000000000000 ) ) ;
#94 = DATE_TIME_ROLE ( 'classification_date' ) ;
#95 = APPROVAL_ROLE ( '' ) ;
#96 = EDGE_CURVE ( 'NONE', #236, #100, #160, .T. ) ;
#97 = CIRCLE ( 'NONE', #19, 6.349999999999999645 ) ;
#98 = ADVANCED_FACE ( 'NONE', ( #56, #297 ), #243, .F. ) ;
#99 = PERSON_AND_ORGANIZATION_ROLE ( 'creator' ) ;
#100 = VERTEX_POINT ( 'NONE', #109 ) ;
#101 = CC_DESIGN_DATE_AND_TIME_ASSIGNMENT ( #234, #94, ( #35 ) ) ;
#102 = DESIGN_CONTEXT ( 'detailed design', #116, 'design' ) ;
#103 = CARTESIAN_POINT ( 'NONE',  ( -1.500000000000000444, 7.776507174585692163E-16, -6.349999999999999645 ) ) ;
#104 = ORIENTED_EDGE ( 'NONE', *, *, #96, .F. ) ;
#105 = ADVANCED_FACE ( 'NONE', ( #319 ), #144, .F. ) ;
#106 = VERTEX_POINT ( 'NONE', #192 ) ;
#107 = DIRECTION ( 'NONE',  ( 0.000000000000000000, 0.000000000000000000, 1.000000000000000000 ) ) ;
#108 = EDGE_CURVE ( 'NONE', #240, #82, #97, .T. ) ;
#109 = CARTESIAN_POINT ( 'NONE',  ( -2.999999999999999556, 0.000000000000000000, 6.349999999999999645 ) ) ;
#110 = CC_DESIGN_PERSON_AND_ORGANIZATION_ASSIGNMENT ( #258, #125, ( #257 ) ) ;
#111 = CARTESIAN_POINT ( 'NONE',  ( 3.000000000000000888, 0.000000000000000000, 0.000000000000000000 ) ) ;
#112 = AXIS2_PLACEMENT_3D ( 'NONE', #299, #304, #36 ) ;
#113 = CARTESIAN_POINT ( 'NONE',  ( 3.000000000000000888, 0.000000000000000000, 6.349999999999999645 ) ) ;
#114 = CYLINDRICAL_SURFACE ( 'NONE', #174, 12.69999999999999929 ) ;
#115 = CARTESIAN_POINT ( 'NONE',  ( -3.000000000000000000, 0.000000000000000000, 12.69999999999999929 ) ) ;
#116 = APPLICATION_CONTEXT ( 'configuration controlled 3d designs of mechanical parts and assemblies' ) ;
#117 = ADVANCED_FACE ( 'NONE', ( #65 ), #246, .F. ) ;
#118 = CARTESIAN_POINT ( 'NONE',  ( -1.614212418857619014, 0.000000000000000000, 0.000000000000000000 ) ) ;
#119 =( NAMED_UNIT ( * ) SI_UNIT ( $, .STERADIAN. ) SOLID_ANGLE_UNIT ( ) );
#120 = AXIS2_PLACEMENT_3D ( 'NONE', #118, #187, #268 ) ;
#121 = ORIENTED_EDGE ( 'NONE', *, *, #209, .T. ) ;
#122 = CIRCLE ( 'NONE', #185, 12.69999999999999929 ) ;
#123 = ADVANCED_FACE ( 'NONE', ( #217 ), #14, .T. ) ;
#124 = CALENDAR_DATE ( 2020, 22, 12 ) ;
#125 = PERSON_AND_ORGANIZATION_ROLE ( 'creator' ) ;
#126 = PERSON_AND_ORGANIZATION ( #202, #25 ) ;
#127 = CARTESIAN_POINT ( 'NONE',  ( -2.999999999999999556, 0.000000000000000000, 0.000000000000000000 ) ) ;
#128 = VERTEX_POINT ( 'NONE', #29 ) ;
#129 = AXIS2_PLACEMENT_3D ( 'NONE', #296, #191, #138 ) ;
#130 = APPROVAL_PERSON_ORGANIZATION ( #203, #273, #95 ) ;
#131 = ORIENTED_EDGE ( 'NONE', *, *, #2, .T. ) ;
#132 = EDGE_CURVE ( 'NONE', #240, #51, #137, .T. ) ;
#133 = ORIENTED_EDGE ( 'NONE', *, *, #5, .F. ) ;
#134 = CC_DESIGN_PERSON_AND_ORGANIZATION_ASSIGNMENT ( #286, #99, ( #261 ) ) ;
#135 = ORIENTED_EDGE ( 'NONE', *, *, #43, .F. ) ;
#136 = CIRCLE ( 'NONE', #87, 6.349999999999999645 ) ;
#137 = LINE ( 'NONE', #9, #311 ) ;
#138 = DIRECTION ( 'NONE',  ( 0.000000000000000000, 0.000000000000000000, 1.000000000000000000 ) ) ;
#139 = DIRECTION ( 'NONE',  ( 0.000000000000000000, 0.000000000000000000, 1.000000000000000000 ) ) ;
#140 = DIRECTION ( 'NONE',  ( -1.000000000000000000, -0.000000000000000000, -0.000000000000000000 ) ) ;
#141 = CARTESIAN_POINT ( 'NONE',  ( -1.500000000000000444, 0.000000000000000000, 6.349999999999999645 ) ) ;
#142 = ADVANCED_BREP_SHAPE_REPRESENTATION ( 'Q-OZHWP-R2-12.7-1064-M', ( #42, #58 ), #53 ) ;
#143 = LINE ( 'NONE', #11, #179 ) ;
#144 = CYLINDRICAL_SURFACE ( 'NONE', #156, 6.349999999999999645 ) ;
#145 = APPROVAL ( #69, 'UNSPECIFIED' ) ;
#146 = ORIENTED_EDGE ( 'NONE', *, *, #303, .T. ) ;
#147 = CARTESIAN_POINT ( 'NONE',  ( -3.000000000000000000, 0.000000000000000000, 0.000000000000000000 ) ) ;
#148 = DATE_AND_TIME ( #41, #45 ) ;
#149 = COORDINATED_UNIVERSAL_TIME_OFFSET ( 8, 0, .AHEAD. ) ;
#150 = VECTOR ( 'NONE', #62, 1000.000000000000000 ) ;
#151 = CALENDAR_DATE ( 2020, 22, 12 ) ;
#152 = ORIENTED_EDGE ( 'NONE', *, *, #108, .F. ) ;
#153 = CALENDAR_DATE ( 2020, 22, 12 ) ;
#154 = ORIENTED_EDGE ( 'NONE', *, *, #226, .F. ) ;
#155 = ORIENTED_EDGE ( 'NONE', *, *, #303, .F. ) ;
#156 = AXIS2_PLACEMENT_3D ( 'NONE', #167, #63, #161 ) ;
#157 = EDGE_LOOP ( 'NONE', ( #315, #289, #216, #6 ) ) ;
#158 = ORIENTED_EDGE ( 'NONE', *, *, #204, .F. ) ;
#159 = EDGE_CURVE ( 'NONE', #186, #128, #223, .T. ) ;
#160 = LINE ( 'NONE', #323, #264 ) ;
#161 = DIRECTION ( 'NONE',  ( 0.000000000000000000, 0.000000000000000000, 1.000000000000000000 ) ) ;
#162 = CARTESIAN_POINT ( 'NONE',  ( -1.614212418857619014, 0.000000000000000000, 12.69999999999999929 ) ) ;
#163 = DIRECTION ( 'NONE',  ( -1.000000000000000000, -0.000000000000000000, -0.000000000000000000 ) ) ;
#164 = DIRECTION ( 'NONE',  ( -1.000000000000000000, -0.000000000000000000, -0.000000000000000000 ) ) ;
#165 = CARTESIAN_POINT ( 'NONE',  ( -3.000000000000000000, 0.000000000000000000, 0.000000000000000000 ) ) ;
#166 = CARTESIAN_POINT ( 'NONE',  ( 3.000000000000000888, 0.000000000000000000, 0.000000000000000000 ) ) ;
#167 = CARTESIAN_POINT ( 'NONE',  ( -1.614212418857619014, 0.000000000000000000, 0.000000000000000000 ) ) ;
#168 = EDGE_CURVE ( 'NONE', #236, #4, #294, .T. ) ;
#169 = DIRECTION ( 'NONE',  ( -1.000000000000000000, -0.000000000000000000, -0.000000000000000000 ) ) ;
#170 = ORIENTED_EDGE ( 'NONE', *, *, #5, .T. ) ;
#171 = DIRECTION ( 'NONE',  ( -1.000000000000000000, -0.000000000000000000, -0.000000000000000000 ) ) ;
#172 = MECHANICAL_CONTEXT ( 'NONE', #12, 'mechanical' ) ;
#173 = CC_DESIGN_DATE_AND_TIME_ASSIGNMENT ( #44, #290, ( #261 ) ) ;
#174 = AXIS2_PLACEMENT_3D ( 'NONE', #37, #163, #88 ) ;
#175 = COORDINATED_UNIVERSAL_TIME_OFFSET ( 8, 0, .AHEAD. ) ;
#176 = ADVANCED_FACE ( 'NONE', ( #227 ), #327, .F. ) ;
#177 = APPROVAL_DATE_TIME ( #283, #239 ) ;
#178 = ORIENTED_EDGE ( 'NONE', *, *, #168, .F. ) ;
#179 = VECTOR ( 'NONE', #83, 1000.000000000000000 ) ;
#180 = APPROVAL_PERSON_ORGANIZATION ( #306, #145, #40 ) ;
#181 = ORIENTED_EDGE ( 'NONE', *, *, #204, .T. ) ;
#182 = EDGE_CURVE ( 'NONE', #260, #335, #301, .T. ) ;
#183 = ORIENTED_EDGE ( 'NONE', *, *, #48, .F. ) ;
#184 = ORIENTED_EDGE ( 'NONE', *, *, #226, .T. ) ;
#185 = AXIS2_PLACEMENT_3D ( 'NONE', #67, #171, #279 ) ;
#186 = VERTEX_POINT ( 'NONE', #274 ) ;
#187 = DIRECTION ( 'NONE',  ( -1.000000000000000000, -0.000000000000000000, -0.000000000000000000 ) ) ;
#188 = DIRECTION ( 'NONE',  ( 1.000000000000000000, 0.000000000000000000, 0.000000000000000000 ) ) ;
#189 = DIRECTION ( 'NONE',  ( -1.000000000000000000, -0.000000000000000000, -0.000000000000000000 ) ) ;
#190 = DIRECTION ( 'NONE',  ( 1.000000000000000000, 0.000000000000000000, 0.000000000000000000 ) ) ;
#191 = DIRECTION ( 'NONE',  ( -1.000000000000000000, -0.000000000000000000, -0.000000000000000000 ) ) ;
#192 = CARTESIAN_POINT ( 'NONE',  ( 1.500000000000000888, 7.776507174585692163E-16, -6.349999999999999645 ) ) ;
#193 =( NAMED_UNIT ( * ) PLANE_ANGLE_UNIT ( ) SI_UNIT ( $, .RADIAN. ) );
#194 = AXIS2_PLACEMENT_3D ( 'NONE', #195, #305, #68 ) ;
#195 = CARTESIAN_POINT ( 'NONE',  ( -1.614212418857619014, 0.000000000000000000, 0.000000000000000000 ) ) ;
#196 = ADVANCED_FACE ( 'NONE', ( #253, #318 ), #16, .F. ) ;
#197 = CARTESIAN_POINT ( 'NONE',  ( 3.000000000000000000, 0.000000000000000000, 12.69999999999999929 ) ) ;
#198 = APPROVAL_DATE_TIME ( #74, #273 ) ;
#199 = COORDINATED_UNIVERSAL_TIME_OFFSET ( 8, 0, .AHEAD. ) ;
#200 = AXIS2_PLACEMENT_3D ( 'NONE', #208, #77, #212 ) ;
#201 = AXIS2_PLACEMENT_3D ( 'NONE', #147, #298, #248 ) ;
#202 = PERSON ( 'UNSPECIFIED', 'UNSPECIFIED', 'UNSPECIFIED', ('UNSPECIFIED'), ('UNSPECIFIED'), ('UNSPECIFIED') ) ;
#203 = PERSON_AND_ORGANIZATION ( #202, #25 ) ;
#204 = EDGE_CURVE ( 'NONE', #51, #106, #136, .T. ) ;
#205 = APPROVAL_STATUS ( 'not_yet_approved' ) ;
#206 = EDGE_LOOP ( 'NONE', ( #241, #121 ) ) ;
#207 = APPROVAL_STATUS ( 'not_yet_approved' ) ;
#208 = CARTESIAN_POINT ( 'NONE',  ( -1.500000000000000444, 0.000000000000000000, 0.000000000000000000 ) ) ;
#209 = EDGE_CURVE ( 'NONE', #82, #240, #282, .T. ) ;
#210 = LOCAL_TIME ( 17, 13, 12.00000000000000000, #332 ) ;
#211 = ORIENTED_EDGE ( 'NONE', *, *, #285, .T. ) ;
#212 = DIRECTION ( 'NONE',  ( 0.000000000000000000, 0.000000000000000000, -1.000000000000000000 ) ) ;
#213 = EDGE_LOOP ( 'NONE', ( #158, #263 ) ) ;
#214 = AXIS2_PLACEMENT_3D ( 'NONE', #317, #188, #91 ) ;
#215 = CC_DESIGN_APPROVAL ( #239, ( #261 ) ) ;
#216 = ORIENTED_EDGE ( 'NONE', *, *, #285, .F. ) ;
#217 = FACE_OUTER_BOUND ( 'NONE', #313, .T. ) ;
#218 =( LENGTH_UNIT ( ) NAMED_UNIT ( * ) SI_UNIT ( .MILLI., .METRE. ) );
#219 = PLANE ( 'NONE',  #23 ) ;
#220 = ADVANCED_FACE ( 'NONE', ( #322 ), #31, .F. ) ;
#221 = DIRECTION ( 'NONE',  ( 0.000000000000000000, 0.000000000000000000, 1.000000000000000000 ) ) ;
#222 = LOCAL_TIME ( 17, 13, 12.00000000000000000, #284 ) ;
#223 = LINE ( 'NONE', #300, #238 ) ;
#224 = DIRECTION ( 'NONE',  ( -0.000000000000000000, 0.000000000000000000, 1.000000000000000000 ) ) ;
#225 = CARTESIAN_POINT ( 'NONE',  ( 3.000000000000000000, 12.69999999999999929, 0.000000000000000000 ) ) ;
#226 = EDGE_CURVE ( 'NONE', #100, #27, #24, .T. ) ;
#227 = FACE_OUTER_BOUND ( 'NONE', #295, .T. ) ;
#228 = DIRECTION ( 'NONE',  ( -0.000000000000000000, 0.000000000000000000, 1.000000000000000000 ) ) ;
#229 = PERSON_AND_ORGANIZATION_ROLE ( 'design_owner' ) ;
#230 = SHAPE_DEFINITION_REPRESENTATION ( #255, #142 ) ;
#231 = AXIS2_PLACEMENT_3D ( 'NONE', #272, #90, #107 ) ;
#232 = APPROVAL_DATE_TIME ( #148, #145 ) ;
#233 = ORIENTED_EDGE ( 'NONE', *, *, #48, .T. ) ;
#234 = DATE_AND_TIME ( #153, #210 ) ;
#235 = DIRECTION ( 'NONE',  ( -1.000000000000000000, -0.000000000000000000, -0.000000000000000000 ) ) ;
#236 = VERTEX_POINT ( 'NONE', #141 ) ;
#237 = AXIS2_PLACEMENT_3D ( 'NONE', #127, #235, #80 ) ;
#238 = VECTOR ( 'NONE', #7, 1000.000000000000000 ) ;
#239 = APPROVAL ( #207, 'UNSPECIFIED' ) ;
#240 = VERTEX_POINT ( 'NONE', #113 ) ;
#241 = ORIENTED_EDGE ( 'NONE', *, *, #108, .T. ) ;
#242 = ORIENTED_EDGE ( 'NONE', *, *, #159, .F. ) ;
#243 = PLANE ( 'NONE',  #72 ) ;
#244 = UNCERTAINTY_MEASURE_WITH_UNIT (LENGTH_MEASURE( 1.000000000000000082E-05 ), #218, 'distance_accuracy_value', 'NONE');
#245 = DIRECTION ( 'NONE',  ( -1.000000000000000000, 0.000000000000000000, -0.000000000000000000 ) ) ;
#246 = CYLINDRICAL_SURFACE ( 'NONE', #129, 6.349999999999999645 ) ;
#247 = AXIS2_PLACEMENT_3D ( 'NONE', #165, #277, #34 ) ;
#248 = DIRECTION ( 'NONE',  ( 0.000000000000000000, 0.000000000000000000, 1.000000000000000000 ) ) ;
#249 = CIRCLE ( 'NONE', #320, 12.69999999999999929 ) ;
#250 = FACE_OUTER_BOUND ( 'NONE', #213, .T. ) ;
#251 = CARTESIAN_POINT ( 'NONE',  ( -1.614212418857619014, 0.000000000000000000, 0.000000000000000000 ) ) ;
#252 = DIRECTION ( 'NONE',  ( 0.000000000000000000, 0.000000000000000000, 1.000000000000000000 ) ) ;
#253 = FACE_OUTER_BOUND ( 'NONE', #75, .T. ) ;
#254 = CIRCLE ( 'NONE', #231, 6.349999999999999645 ) ;
#255 = PRODUCT_DEFINITION_SHAPE ( 'NONE', 'NONE',  #261 ) ;
#256 = CALENDAR_DATE ( 2020, 22, 12 ) ;
#257 = PRODUCT_DEFINITION_FORMATION_WITH_SPECIFIED_SOURCE ( 'ANY', '', #70, .NOT_KNOWN. ) ;
#258 = PERSON_AND_ORGANIZATION ( #202, #25 ) ;
#259 = ADVANCED_FACE ( 'NONE', ( #276 ), #326, .F. ) ;
#260 = VERTEX_POINT ( 'NONE', #197 ) ;
#261 = PRODUCT_DEFINITION ( 'UNKNOWN', '', #257, #102 ) ;
#262 = ORIENTED_EDGE ( 'NONE', *, *, #333, .F. ) ;
#263 = ORIENTED_EDGE ( 'NONE', *, *, #81, .F. ) ;
#264 = VECTOR ( 'NONE', #61, 1000.000000000000000 ) ;
#265 = CC_DESIGN_APPROVAL ( #145, ( #35 ) ) ;
#266 = EDGE_LOOP ( 'NONE', ( #267, #146, #3, #46 ) ) ;
#267 = ORIENTED_EDGE ( 'NONE', *, *, #209, .F. ) ;
#268 = DIRECTION ( 'NONE',  ( 0.000000000000000000, 0.000000000000000000, 1.000000000000000000 ) ) ;
#269 = AXIS2_PLACEMENT_3D ( 'NONE', #89, #33, #93 ) ;
#270 = CARTESIAN_POINT ( 'NONE',  ( 1.500000000000000888, 0.000000000000000000, 6.349999999999999645 ) ) ;
#271 = LINE ( 'NONE', #13, #92 ) ;
#272 = CARTESIAN_POINT ( 'NONE',  ( 1.500000000000000888, 0.000000000000000000, 0.000000000000000000 ) ) ;
#273 = APPROVAL ( #205, 'UNSPECIFIED' ) ;
#274 = CARTESIAN_POINT ( 'NONE',  ( 3.000000000000000000, 1.555301434917138433E-15, -12.69999999999999929 ) ) ;
#275 = CARTESIAN_POINT ( 'NONE',  ( 1.500000000000000444, 6.349999999999999645, 0.000000000000000000 ) ) ;
#276 = FACE_OUTER_BOUND ( 'NONE', #78, .T. ) ;
#277 = DIRECTION ( 'NONE',  ( -1.000000000000000000, -0.000000000000000000, -0.000000000000000000 ) ) ;
#278 = CC_DESIGN_PERSON_AND_ORGANIZATION_ASSIGNMENT ( #334, #229, ( #70 ) ) ;
#279 = DIRECTION ( 'NONE',  ( 0.000000000000000000, 0.000000000000000000, 1.000000000000000000 ) ) ;
#280 = DIRECTION ( 'NONE',  ( 0.000000000000000000, 0.000000000000000000, 1.000000000000000000 ) ) ;
#281 = CIRCLE ( 'NONE', #247, 12.69999999999999929 ) ;
#282 = CIRCLE ( 'NONE', #330, 6.349999999999999645 ) ;
#283 = DATE_AND_TIME ( #124, #288 ) ;
#284 = COORDINATED_UNIVERSAL_TIME_OFFSET ( 8, 0, .AHEAD. ) ;
#285 = EDGE_CURVE ( 'NONE', #335, #128, #10, .T. ) ;
#286 = PERSON_AND_ORGANIZATION ( #202, #25 ) ;
#287 = AXIS2_PLACEMENT_3D ( 'NONE', #225, #324, #228 ) ;
#288 = LOCAL_TIME ( 17, 13, 12.00000000000000000, #175 ) ;
#289 = ORIENTED_EDGE ( 'NONE', *, *, #159, .T. ) ;
#290 = DATE_TIME_ROLE ( 'creation_date' ) ;
#291 = ORIENTED_EDGE ( 'NONE', *, *, #182, .T. ) ;
#292 = EDGE_LOOP ( 'NONE', ( #154, #26 ) ) ;
#293 = ORIENTED_EDGE ( 'NONE', *, *, #96, .T. ) ;
#294 = CIRCLE ( 'NONE', #214, 6.349999999999999645 ) ;
#295 = EDGE_LOOP ( 'NONE', ( #155, #152, #312, #181 ) ) ;
#296 = CARTESIAN_POINT ( 'NONE',  ( -1.614212418857619014, 0.000000000000000000, 0.000000000000000000 ) ) ;
#297 = FACE_OUTER_BOUND ( 'NONE', #1, .T. ) ;
#298 = DIRECTION ( 'NONE',  ( -1.000000000000000000, -0.000000000000000000, -0.000000000000000000 ) ) ;
#299 = CARTESIAN_POINT ( 'NONE',  ( -1.500000000000000444, 6.349999999999999645, 0.000000000000000000 ) ) ;
#300 = CARTESIAN_POINT ( 'NONE',  ( -1.614212418857619014, 1.555301434917138433E-15, -12.69999999999999929 ) ) ;
#301 = LINE ( 'NONE', #162, #150 ) ;
#302 = CARTESIAN_POINT ( 'NONE',  ( -3.000000000000000000, 6.349999999999999645, 0.000000000000000000 ) ) ;
#303 = EDGE_CURVE ( 'NONE', #82, #106, #271, .T. ) ;
#304 = DIRECTION ( 'NONE',  ( 1.000000000000000000, 0.000000000000000000, 0.000000000000000000 ) ) ;
#305 = DIRECTION ( 'NONE',  ( -1.000000000000000000, -0.000000000000000000, -0.000000000000000000 ) ) ;
#306 = PERSON_AND_ORGANIZATION ( #202, #25 ) ;
#307 = APPLICATION_PROTOCOL_DEFINITION ( 'international standard', 'config_control_design', 1994, #116 ) ;
#308 = PRODUCT_RELATED_PRODUCT_CATEGORY ( 'detail', '', ( #70 ) ) ;
#309 = CC_DESIGN_SECURITY_CLASSIFICATION ( #35, ( #257 ) ) ;
#310 = ORIENTED_EDGE ( 'NONE', *, *, #168, .T. ) ;
#311 = VECTOR ( 'NONE', #189, 1000.000000000000000 ) ;
#312 = ORIENTED_EDGE ( 'NONE', *, *, #132, .T. ) ;
#313 = EDGE_LOOP ( 'NONE', ( #242, #22, #291, #183 ) ) ;
#314 = CARTESIAN_POINT ( 'NONE',  ( -2.999999999999999556, 7.776507174585692163E-16, -6.349999999999999645 ) ) ;
#315 = ORIENTED_EDGE ( 'NONE', *, *, #333, .T. ) ;
#316 = DIRECTION ( 'NONE',  ( 1.000000000000000000, 0.000000000000000000, 0.000000000000000000 ) ) ;
#317 = CARTESIAN_POINT ( 'NONE',  ( -1.500000000000000444, 0.000000000000000000, 0.000000000000000000 ) ) ;
#318 = FACE_BOUND ( 'NONE', #206, .T. ) ;
#319 = FACE_OUTER_BOUND ( 'NONE', #266, .T. ) ;
#320 = AXIS2_PLACEMENT_3D ( 'NONE', #325, #30, #252 ) ;
#321 = AXIS2_PLACEMENT_3D ( 'NONE', #251, #169, #139 ) ;
#322 = FACE_OUTER_BOUND ( 'NONE', #54, .T. ) ;
#323 = CARTESIAN_POINT ( 'NONE',  ( -1.614212418857619014, 0.000000000000000000, 6.349999999999999645 ) ) ;
#324 = DIRECTION ( 'NONE',  ( -1.000000000000000000, 0.000000000000000000, -0.000000000000000000 ) ) ;
#325 = CARTESIAN_POINT ( 'NONE',  ( 3.000000000000000000, 0.000000000000000000, 0.000000000000000000 ) ) ;
#326 = PLANE ( 'NONE',  #112 ) ;
#327 = CYLINDRICAL_SURFACE ( 'NONE', #194, 6.349999999999999645 ) ;
#328 = CC_DESIGN_PERSON_AND_ORGANIZATION_ASSIGNMENT ( #76, #17, ( #257 ) ) ;
#329 = CLOSED_SHELL ( 'NONE', ( #55, #220, #105, #79, #176, #117, #98, #123, #196, #259 ) ) ;
#330 = AXIS2_PLACEMENT_3D ( 'NONE', #166, #15, #280 ) ;
#331 = LOCAL_TIME ( 17, 13, 12.00000000000000000, #149 ) ;
#332 = COORDINATED_UNIVERSAL_TIME_OFFSET ( 8, 0, .AHEAD. ) ;
#333 = EDGE_CURVE ( 'NONE', #260, #186, #122, .T. ) ;
#334 = PERSON_AND_ORGANIZATION ( #202, #25 ) ;
#335 = VERTEX_POINT ( 'NONE', #115 ) ;
ENDSEC;
END-ISO-10303-21;
